ISO-10303-21;
HEADER;
FILE_DESCRIPTION (( 'STEP AP203' ),
    '1' );
FILE_NAME ('Entry thread seal - Metric and NPT.40 Metric.STEP',
    '2013-02-07T10:14:34',
    ( '' ),
    ( '' ),
    'SwSTEP 2.0',
    'SolidWorks 2012',
    '' );
FILE_SCHEMA (( 'CONFIG_CONTROL_DESIGN' ));
ENDSEC;

DATA;
#1 = LOCAL_TIME ( 10, 14, 34.00000000000000000, #79 ) ;
#2 = APPROVAL_ROLE ( '' ) ;
#3 = PRODUCT_DEFINITION_SHAPE ( 'NONE', 'NONE',  #200 ) ;
#4 = DESIGN_CONTEXT ( 'detailed design', #60, 'design' ) ;
#5 = DIRECTION ( 'NONE',  ( 0.0000000000000000000, 0.0000000000000000000, 1.000000000000000000 ) ) ;
#6 = DIRECTION ( 'NONE',  ( -1.000000000000000000, -0.0000000000000000000, -0.0000000000000000000 ) ) ;
#7 = CARTESIAN_POINT ( 'NONE',  ( -1.000000000000000900, 0.0000000000000000000, 0.0000000000000000000 ) ) ;
#8 = DIRECTION ( 'NONE',  ( 0.0000000000000000000, 0.0000000000000000000, 1.000000000000000000 ) ) ;
#9 = CARTESIAN_POINT ( 'NONE',  ( 0.0000000000000000000, 0.0000000000000000000, 0.0000000000000000000 ) ) ;
#10 = DIRECTION ( 'NONE',  ( 0.0000000000000000000, 0.0000000000000000000, 1.000000000000000000 ) ) ;
#11 = DIRECTION ( 'NONE',  ( -1.000000000000000000, -0.0000000000000000000, -0.0000000000000000000 ) ) ;
#12 = CARTESIAN_POINT ( 'NONE',  ( -1.000000000000000900, 0.0000000000000000000, 0.0000000000000000000 ) ) ;
#13 = DIRECTION ( 'NONE',  ( 0.0000000000000000000, 0.0000000000000000000, 1.000000000000000000 ) ) ;
#14 = DIRECTION ( 'NONE',  ( -1.000000000000000000, -0.0000000000000000000, -0.0000000000000000000 ) ) ;
#15 = CARTESIAN_POINT ( 'NONE',  ( -39.90653472252495200, 0.0000000000000000000, 0.0000000000000000000 ) ) ;
#16 = DIRECTION ( 'NONE',  ( -1.000000000000000000, -0.0000000000000000000, -0.0000000000000000000 ) ) ;
#17 = CARTESIAN_POINT ( 'NONE',  ( -39.90653472252495200, 0.0000000000000000000, 0.0000000000000000000 ) ) ;
#18 = DIRECTION ( 'NONE',  ( 0.0000000000000000000, 0.0000000000000000000, 1.000000000000000000 ) ) ;
#19 = DIRECTION ( 'NONE',  ( -1.000000000000000000, -0.0000000000000000000, -0.0000000000000000000 ) ) ;
#20 = DIRECTION ( 'NONE',  ( -0.0000000000000000000, 0.0000000000000000000, 1.000000000000000000 ) ) ;
#21 = DIRECTION ( 'NONE',  ( -1.000000000000000000, -0.0000000000000000000, -0.0000000000000000000 ) ) ;
#22 = DIRECTION ( 'NONE',  ( 0.0000000000000000000, 0.0000000000000000000, 1.000000000000000000 ) ) ;
#23 = DIRECTION ( 'NONE',  ( -1.000000000000000000, -0.0000000000000000000, -0.0000000000000000000 ) ) ;
#24 = CARTESIAN_POINT ( 'NONE',  ( -39.90653472252495200, 0.0000000000000000000, 25.25000000000000000 ) ) ;
#25 = CARTESIAN_POINT ( 'NONE',  ( -39.90653472252495200, 0.0000000000000000000, 0.0000000000000000000 ) ) ;
#26 = CARTESIAN_POINT ( 'NONE',  ( 0.9999999999999974500, 20.00000000000000400, 0.0000000000000000000 ) ) ;
#27 = DIRECTION ( 'NONE',  ( -1.000000000000000000, -0.0000000000000000000, -0.0000000000000000000 ) ) ;
#28 = DIRECTION ( 'NONE',  ( 0.0000000000000000000, 0.0000000000000000000, 1.000000000000000000 ) ) ;
#29 = DIRECTION ( 'NONE',  ( -1.000000000000000000, -0.0000000000000000000, -0.0000000000000000000 ) ) ;
#30 = CARTESIAN_POINT ( 'NONE',  ( -1.000000000000000900, 0.0000000000000000000, 0.0000000000000000000 ) ) ;
#31 = CARTESIAN_POINT ( 'NONE',  ( 0.9999999999999940000, 0.0000000000000000000, 0.0000000000000000000 ) ) ;
#32 = CARTESIAN_POINT ( 'NONE',  ( -39.90653472252495200, 0.0000000000000000000, 20.00000000000000400 ) ) ;
#33 = CARTESIAN_POINT ( 'NONE',  ( -39.90653472252495200, 2.449293598294706900E-015, -20.00000000000000400 ) ) ;
#34 = DIRECTION ( 'NONE',  ( 0.0000000000000000000, 0.0000000000000000000, 1.000000000000000000 ) ) ;
#35 = DIRECTION ( 'NONE',  ( -1.000000000000000000, -0.0000000000000000000, -0.0000000000000000000 ) ) ;
#36 = CARTESIAN_POINT ( 'NONE',  ( -39.90653472252495200, 0.0000000000000000000, 0.0000000000000000000 ) ) ;
#37 = CARTESIAN_POINT ( 'NONE',  ( -1.000000000000002700, 25.25000000000000000, 0.0000000000000000000 ) ) ;
#38 = CARTESIAN_POINT ( 'NONE',  ( -1.000000000000000900, 0.0000000000000000000, 25.25000000000000000 ) ) ;
#39 = DIRECTION ( 'NONE',  ( -1.000000000000000000, -0.0000000000000000000, -0.0000000000000000000 ) ) ;
#40 = DIRECTION ( 'NONE',  ( 0.0000000000000000000, 0.0000000000000000000, 1.000000000000000000 ) ) ;
#41 = DIRECTION ( 'NONE',  ( 1.000000000000000000, 0.0000000000000000000, 0.0000000000000000000 ) ) ;
#42 =( LENGTH_UNIT ( ) NAMED_UNIT ( * ) SI_UNIT ( .MILLI., .METRE. ) );
#43 = CARTESIAN_POINT ( 'NONE',  ( -1.000000000000000900, 3.092233167847066800E-015, -25.25000000000000000 ) ) ;
#44 = APPROVAL_ROLE ( '' ) ;
#45 = APPROVAL_STATUS ( 'not_yet_approved' ) ;
#46 = CARTESIAN_POINT ( 'NONE',  ( 1.000000000000000900, 0.0000000000000000000, 20.00000000000000400 ) ) ;
#47 = DIRECTION ( 'NONE',  ( 0.0000000000000000000, 0.0000000000000000000, 1.000000000000000000 ) ) ;
#48 = CARTESIAN_POINT ( 'NONE',  ( -1.000000000000000900, 0.0000000000000000000, 20.00000000000000400 ) ) ;
#49 = CARTESIAN_POINT ( 'NONE',  ( 0.9999999999999940000, 3.092233167847066800E-015, -25.25000000000000000 ) ) ;
#50 = CARTESIAN_POINT ( 'NONE',  ( 0.9999999999999940000, 0.0000000000000000000, 25.25000000000000000 ) ) ;
#51 = DIRECTION ( 'NONE',  ( -1.000000000000000000, 0.0000000000000000000, -0.0000000000000000000 ) ) ;
#52 =( NAMED_UNIT ( * ) PLANE_ANGLE_UNIT ( ) SI_UNIT ( $, .RADIAN. ) );
#53 =( NAMED_UNIT ( * ) SI_UNIT ( $, .STERADIAN. ) SOLID_ANGLE_UNIT ( ) );
#54 = PLANE ( 'NONE',  #235 ) ;
#55 = DIRECTION ( 'NONE',  ( -1.000000000000000000, -0.0000000000000000000, -0.0000000000000000000 ) ) ;
#56 = DIRECTION ( 'NONE',  ( 0.0000000000000000000, 0.0000000000000000000, 1.000000000000000000 ) ) ;
#57 = DIRECTION ( 'NONE',  ( -1.000000000000000000, -0.0000000000000000000, -0.0000000000000000000 ) ) ;
#58 = MECHANICAL_CONTEXT ( 'NONE', #76, 'mechanical' ) ;
#59 = PERSON_AND_ORGANIZATION_ROLE ( 'design_owner' ) ;
#60 = APPLICATION_CONTEXT ( 'configuration controlled 3d designs of mechanical parts and assemblies' ) ;
#61 = APPLICATION_PROTOCOL_DEFINITION ( 'international standard', 'config_control_design', 1994, #60 ) ;
#62 = DIRECTION ( 'NONE',  ( 0.0000000000000000000, 0.0000000000000000000, -1.000000000000000000 ) ) ;
#63 = CARTESIAN_POINT ( 'NONE',  ( 1.000000000000000900, 0.0000000000000000000, 0.0000000000000000000 ) ) ;
#64 = DIRECTION ( 'NONE',  ( -1.000000000000000000, -0.0000000000000000000, -0.0000000000000000000 ) ) ;
#65 = DIRECTION ( 'NONE',  ( 0.0000000000000000000, 0.0000000000000000000, 1.000000000000000000 ) ) ;
#66 = CARTESIAN_POINT ( 'NONE',  ( 0.9999999999999940000, 0.0000000000000000000, 0.0000000000000000000 ) ) ;
#67 = DIRECTION ( 'NONE',  ( -1.000000000000000000, -0.0000000000000000000, -0.0000000000000000000 ) ) ;
#68 = CARTESIAN_POINT ( 'NONE',  ( -39.90653472252495200, 3.092233167847066800E-015, -25.25000000000000000 ) ) ;
#69 = PLANE ( 'NONE',  #231 ) ;
#70 = CARTESIAN_POINT ( 'NONE',  ( -1.000000000000000900, 0.0000000000000000000, 0.0000000000000000000 ) ) ;
#71 = CARTESIAN_POINT ( 'NONE',  ( -1.000000000000000900, 2.449293598294706900E-015, -20.00000000000000400 ) ) ;
#72 = CARTESIAN_POINT ( 'NONE',  ( 1.000000000000000900, 2.449293598294706900E-015, -20.00000000000000400 ) ) ;
#73 = DIRECTION ( 'NONE',  ( 0.0000000000000000000, 0.0000000000000000000, 1.000000000000000000 ) ) ;
#74 = DIRECTION ( 'NONE',  ( -1.000000000000000000, -0.0000000000000000000, -0.0000000000000000000 ) ) ;
#75 = CARTESIAN_POINT ( 'NONE',  ( 1.000000000000000900, 0.0000000000000000000, 0.0000000000000000000 ) ) ;
#76 = APPLICATION_CONTEXT ( 'configuration controlled 3d designs of mechanical parts and assemblies' ) ;
#77 = DIRECTION ( 'NONE',  ( 1.000000000000000000, 0.0000000000000000000, 0.0000000000000000000 ) ) ;
#78 = APPLICATION_PROTOCOL_DEFINITION ( 'international standard', 'config_control_design', 1994, #76 ) ;
#79 = COORDINATED_UNIVERSAL_TIME_OFFSET ( 0, 0, .AHEAD. ) ;
#80 = PERSON_AND_ORGANIZATION ( #245, #157 ) ;
#81 = LOCAL_TIME ( 10, 14, 34.00000000000000000, #173 ) ;
#82 = PERSON_AND_ORGANIZATION ( #245, #157 ) ;
#83 = APPROVAL_DATE_TIME ( #84, #206 ) ;
#84 = DATE_AND_TIME ( #85, #81 ) ;
#85 = CALENDAR_DATE ( 2013, 7, 2 ) ;
#86 = PERSON_AND_ORGANIZATION ( #245, #157 ) ;
#87 = VERTEX_POINT ( 'NONE', #48 ) ;
#88 = VERTEX_POINT ( 'NONE', #38 ) ;
#89 = VERTEX_POINT ( 'NONE', #72 ) ;
#90 = VERTEX_POINT ( 'NONE', #71 ) ;
#91 = VERTEX_POINT ( 'NONE', #50 ) ;
#92 = VERTEX_POINT ( 'NONE', #46 ) ;
#93 = VERTEX_POINT ( 'NONE', #43 ) ;
#94 = FACE_OUTER_BOUND ( 'NONE', #103, .T. ) ;
#95 = VERTEX_POINT ( 'NONE', #49 ) ;
#96 = FACE_OUTER_BOUND ( 'NONE', #102, .T. ) ;
#97 = EDGE_LOOP ( 'NONE', ( #117, #118 ) ) ;
#98 = EDGE_LOOP ( 'NONE', ( #125, #126 ) ) ;
#99 = EDGE_LOOP ( 'NONE', ( #113, #114, #115, #116 ) ) ;
#100 = EDGE_LOOP ( 'NONE', ( #127, #128 ) ) ;
#101 = EDGE_LOOP ( 'NONE', ( #106, #105, #107, #108 ) ) ;
#102 = EDGE_LOOP ( 'NONE', ( #109, #110, #111, #112 ) ) ;
#103 = EDGE_LOOP ( 'NONE', ( #119, #120 ) ) ;
#104 = EDGE_LOOP ( 'NONE', ( #121, #122, #123, #124 ) ) ;
#105 = ORIENTED_EDGE ( 'NONE', *, *, #221, .T. ) ;
#106 = ORIENTED_EDGE ( 'NONE', *, *, #223, .F. ) ;
#107 = ORIENTED_EDGE ( 'NONE', *, *, #227, .T. ) ;
#108 = ORIENTED_EDGE ( 'NONE', *, *, #220, .F. ) ;
#109 = ORIENTED_EDGE ( 'NONE', *, *, #226, .T. ) ;
#110 = ORIENTED_EDGE ( 'NONE', *, *, #225, .T. ) ;
#111 = ORIENTED_EDGE ( 'NONE', *, *, #224, .F. ) ;
#112 = ORIENTED_EDGE ( 'NONE', *, *, #222, .F. ) ;
#113 = ORIENTED_EDGE ( 'NONE', *, *, #225, .F. ) ;
#114 = ORIENTED_EDGE ( 'NONE', *, *, #219, .T. ) ;
#115 = ORIENTED_EDGE ( 'NONE', *, *, #222, .T. ) ;
#116 = ORIENTED_EDGE ( 'NONE', *, *, #218, .F. ) ;
#117 = ORIENTED_EDGE ( 'NONE', *, *, #248, .F. ) ;
#118 = ORIENTED_EDGE ( 'NONE', *, *, #227, .F. ) ;
#119 = ORIENTED_EDGE ( 'NONE', *, *, #224, .T. ) ;
#120 = ORIENTED_EDGE ( 'NONE', *, *, #218, .T. ) ;
#121 = ORIENTED_EDGE ( 'NONE', *, *, #221, .F. ) ;
#122 = ORIENTED_EDGE ( 'NONE', *, *, #228, .F. ) ;
#123 = ORIENTED_EDGE ( 'NONE', *, *, #220, .T. ) ;
#124 = ORIENTED_EDGE ( 'NONE', *, *, #248, .T. ) ;
#125 = ORIENTED_EDGE ( 'NONE', *, *, #226, .F. ) ;
#126 = ORIENTED_EDGE ( 'NONE', *, *, #219, .F. ) ;
#127 = ORIENTED_EDGE ( 'NONE', *, *, #228, .T. ) ;
#128 = ORIENTED_EDGE ( 'NONE', *, *, #223, .T. ) ;
#129 = CLOSED_SHELL ( 'NONE', ( #182, #185, #184, #183, #186, #187 ) ) ;
#130 = CYLINDRICAL_SURFACE ( 'NONE', #230, 20.00000000000000400 ) ;
#131 = FACE_OUTER_BOUND ( 'NONE', #104, .T. ) ;
#132 = FACE_OUTER_BOUND ( 'NONE', #98, .T. ) ;
#133 = FACE_BOUND ( 'NONE', #97, .T. ) ;
#134 = FACE_OUTER_BOUND ( 'NONE', #99, .T. ) ;
#135 = FACE_OUTER_BOUND ( 'NONE', #101, .T. ) ;
#136 = LINE ( 'NONE', #33, #147 ) ;
#137 = CYLINDRICAL_SURFACE ( 'NONE', #232, 25.25000000000000000 ) ;
#138 = CIRCLE ( 'NONE', #229, 25.25000000000000000 ) ;
#139 = CYLINDRICAL_SURFACE ( 'NONE', #233, 25.25000000000000000 ) ;
#140 = CIRCLE ( 'NONE', #236, 25.25000000000000000 ) ;
#141 = CYLINDRICAL_SURFACE ( 'NONE', #234, 20.00000000000000400 ) ;
#142 = FACE_BOUND ( 'NONE', #100, .T. ) ;
#143 = LINE ( 'NONE', #32, #145 ) ;
#144 = LINE ( 'NONE', #24, #149 ) ;
#145 = VECTOR ( 'NONE', #55, 1000.000000000000000 ) ;
#146 = CIRCLE ( 'NONE', #238, 25.25000000000000000 ) ;
#147 = VECTOR ( 'NONE', #21, 1000.000000000000000 ) ;
#148 = CIRCLE ( 'NONE', #237, 20.00000000000000400 ) ;
#149 = VECTOR ( 'NONE', #57, 1000.000000000000000 ) ;
#150 = CIRCLE ( 'NONE', #239, 25.25000000000000000 ) ;
#151 = LINE ( 'NONE', #68, #152 ) ;
#152 = VECTOR ( 'NONE', #67, 1000.000000000000000 ) ;
#153 = CIRCLE ( 'NONE', #240, 20.00000000000000400 ) ;
#154 = CIRCLE ( 'NONE', #241, 20.00000000000000400 ) ;
#155 = CIRCLE ( 'NONE', #242, 20.00000000000000400 ) ;
#156 = SHAPE_DEFINITION_REPRESENTATION ( #3, #188 ) ;
#157 = ORGANIZATION ( 'UNSPECIFIED', 'UNSPECIFIED', '' ) ;
#158 = PERSON_AND_ORGANIZATION ( #245, #157 ) ;
#159 = PERSON_AND_ORGANIZATION ( #245, #157 ) ;
#160 = APPROVAL_PERSON_ORGANIZATION ( #159, #201, #44 ) ;
#161 = COORDINATED_UNIVERSAL_TIME_OFFSET ( 0, 0, .AHEAD. ) ;
#162 = LOCAL_TIME ( 10, 14, 34.00000000000000000, #161 ) ;
#163 = CALENDAR_DATE ( 2013, 7, 2 ) ;
#164 = DATE_AND_TIME ( #163, #162 ) ;
#165 = APPROVAL_DATE_TIME ( #164, #201 ) ;
#166 = PERSON_AND_ORGANIZATION ( #245, #157 ) ;
#167 = COORDINATED_UNIVERSAL_TIME_OFFSET ( 0, 0, .AHEAD. ) ;
#168 = LOCAL_TIME ( 10, 14, 34.00000000000000000, #167 ) ;
#169 = CALENDAR_DATE ( 2013, 7, 2 ) ;
#170 = DATE_AND_TIME ( #169, #168 ) ;
#171 = PERSON_AND_ORGANIZATION ( #245, #157 ) ;
#172 = APPROVAL_PERSON_ORGANIZATION ( #171, #206, #2 ) ;
#173 = COORDINATED_UNIVERSAL_TIME_OFFSET ( 0, 0, .AHEAD. ) ;
#174 = DATE_AND_TIME ( #249, #1 ) ;
#175 = PERSON_AND_ORGANIZATION ( #245, #157 ) ;
#176 = APPROVAL_PERSON_ORGANIZATION ( #175, #213, #197 ) ;
#177 = COORDINATED_UNIVERSAL_TIME_OFFSET ( 0, 0, .AHEAD. ) ;
#178 = LOCAL_TIME ( 10, 14, 34.00000000000000000, #177 ) ;
#179 = CALENDAR_DATE ( 2013, 7, 2 ) ;
#180 = DATE_AND_TIME ( #179, #178 ) ;
#181 = APPROVAL_DATE_TIME ( #180, #213 ) ;
#182 = ADVANCED_FACE ( 'NONE', ( #135 ), #130, .F. ) ;
#183 = ADVANCED_FACE ( 'NONE', ( #133, #94 ), #69, .F. ) ;
#184 = ADVANCED_FACE ( 'NONE', ( #134 ), #137, .T. ) ;
#185 = ADVANCED_FACE ( 'NONE', ( #96 ), #139, .T. ) ;
#186 = ADVANCED_FACE ( 'NONE', ( #131 ), #141, .F. ) ;
#187 = ADVANCED_FACE ( 'NONE', ( #132, #142 ), #54, .F. ) ;
#188 = ADVANCED_BREP_SHAPE_REPRESENTATION ( 'Entry thread seal - Metric and NPT.40 Metric', ( #190, #198 ), #243 ) ;
#189 = UNCERTAINTY_MEASURE_WITH_UNIT (LENGTH_MEASURE( 1.000000000000000100E-005 ), #42, 'distance_accuracy_value', 'NONE');
#190 = MANIFOLD_SOLID_BREP ( 'Revolve1', #129 ) ;
#191 = PERSON_AND_ORGANIZATION_ROLE ( 'creator' ) ;
#192 = PERSON_AND_ORGANIZATION_ROLE ( 'design_supplier' ) ;
#193 = SECURITY_CLASSIFICATION_LEVEL ( 'unclassified' ) ;
#194 = PERSON_AND_ORGANIZATION_ROLE ( 'classification_officer' ) ;
#195 = DATE_TIME_ROLE ( 'classification_date' ) ;
#196 = APPROVAL_STATUS ( 'not_yet_approved' ) ;
#197 = APPROVAL_ROLE ( '' ) ;
#198 = AXIS2_PLACEMENT_3D ( 'NONE', #9, #8, #77 ) ;
#199 = CC_DESIGN_PERSON_AND_ORGANIZATION_ASSIGNMENT ( #158, #59, ( #244 ) ) ;
#200 = PRODUCT_DEFINITION ( 'UNKNOWN', '', #205, #4 ) ;
#201 = APPROVAL ( #45, 'UNSPECIFIED' ) ;
#202 = CC_DESIGN_APPROVAL ( #201, ( #200 ) ) ;
#203 = CC_DESIGN_PERSON_AND_ORGANIZATION_ASSIGNMENT ( #166, #247, ( #200 ) ) ;
#204 = CC_DESIGN_DATE_AND_TIME_ASSIGNMENT ( #170, #246, ( #200 ) ) ;
#205 = PRODUCT_DEFINITION_FORMATION_WITH_SPECIFIED_SOURCE ( 'ANY', '', #244, .NOT_KNOWN. ) ;
#206 = APPROVAL ( #217, 'UNSPECIFIED' ) ;
#207 = CC_DESIGN_APPROVAL ( #206, ( #205 ) ) ;
#208 = CC_DESIGN_PERSON_AND_ORGANIZATION_ASSIGNMENT ( #82, #191, ( #205 ) ) ;
#209 = CC_DESIGN_PERSON_AND_ORGANIZATION_ASSIGNMENT ( #86, #192, ( #205 ) ) ;
#210 = SECURITY_CLASSIFICATION ( '', '', #193 ) ;
#211 = CC_DESIGN_PERSON_AND_ORGANIZATION_ASSIGNMENT ( #80, #194, ( #210 ) ) ;
#212 = CC_DESIGN_DATE_AND_TIME_ASSIGNMENT ( #174, #195, ( #210 ) ) ;
#213 = APPROVAL ( #196, 'UNSPECIFIED' ) ;
#214 = CC_DESIGN_APPROVAL ( #213, ( #210 ) ) ;
#215 = CC_DESIGN_SECURITY_CLASSIFICATION ( #210, ( #205 ) ) ;
#216 = PRODUCT_RELATED_PRODUCT_CATEGORY ( 'detail', '', ( #244 ) ) ;
#217 = APPROVAL_STATUS ( 'not_yet_approved' ) ;
#218 = EDGE_CURVE ( 'NONE', #93, #88, #138, .T. ) ;
#219 = EDGE_CURVE ( 'NONE', #95, #91, #140, .T. ) ;
#220 = EDGE_CURVE ( 'NONE', #92, #87, #143, .T. ) ;
#221 = EDGE_CURVE ( 'NONE', #89, #90, #136, .T. ) ;
#222 = EDGE_CURVE ( 'NONE', #91, #88, #144, .T. ) ;
#223 = EDGE_CURVE ( 'NONE', #89, #92, #148, .T. ) ;
#224 = EDGE_CURVE ( 'NONE', #88, #93, #146, .T. ) ;
#225 = EDGE_CURVE ( 'NONE', #95, #93, #151, .T. ) ;
#226 = EDGE_CURVE ( 'NONE', #91, #95, #150, .T. ) ;
#227 = EDGE_CURVE ( 'NONE', #90, #87, #153, .T. ) ;
#228 = EDGE_CURVE ( 'NONE', #92, #89, #154, .T. ) ;
#229 = AXIS2_PLACEMENT_3D ( 'NONE', #30, #29, #28 ) ;
#230 = AXIS2_PLACEMENT_3D ( 'NONE', #36, #35, #47 ) ;
#231 = AXIS2_PLACEMENT_3D ( 'NONE', #37, #41, #62 ) ;
#232 = AXIS2_PLACEMENT_3D ( 'NONE', #15, #16, #56 ) ;
#233 = AXIS2_PLACEMENT_3D ( 'NONE', #17, #19, #34 ) ;
#234 = AXIS2_PLACEMENT_3D ( 'NONE', #25, #27, #18 ) ;
#235 = AXIS2_PLACEMENT_3D ( 'NONE', #26, #51, #20 ) ;
#236 = AXIS2_PLACEMENT_3D ( 'NONE', #31, #23, #22 ) ;
#237 = AXIS2_PLACEMENT_3D ( 'NONE', #63, #64, #65 ) ;
#238 = AXIS2_PLACEMENT_3D ( 'NONE', #7, #6, #5 ) ;
#239 = AXIS2_PLACEMENT_3D ( 'NONE', #66, #14, #13 ) ;
#240 = AXIS2_PLACEMENT_3D ( 'NONE', #12, #11, #10 ) ;
#241 = AXIS2_PLACEMENT_3D ( 'NONE', #75, #74, #73 ) ;
#242 = AXIS2_PLACEMENT_3D ( 'NONE', #70, #39, #40 ) ;
#243 =( GEOMETRIC_REPRESENTATION_CONTEXT ( 3 ) GLOBAL_UNCERTAINTY_ASSIGNED_CONTEXT ( ( #189 ) ) GLOBAL_UNIT_ASSIGNED_CONTEXT ( ( #42, #52, #53 ) ) REPRESENTATION_CONTEXT ( 'NONE', 'WORKASPACE' ) );
#244 = PRODUCT ( 'Entry thread seal - Metric and NPT.40 Metric', 'Entry thread seal - Metric and NPT.40 Metric', '', ( #58 ) ) ;
#245 = PERSON ( 'UNSPECIFIED', 'UNSPECIFIED', 'UNSPECIFIED', ('UNSPECIFIED'), ('UNSPECIFIED'), ('UNSPECIFIED') ) ;
#246 = DATE_TIME_ROLE ( 'creation_date' ) ;
#247 = PERSON_AND_ORGANIZATION_ROLE ( 'creator' ) ;
#248 = EDGE_CURVE ( 'NONE', #87, #90, #155, .T. ) ;
#249 = CALENDAR_DATE ( 2013, 7, 2 ) ;
ENDSEC;
END-ISO-10303-21;
